No te arrepientes Dios – Padre Ángel Alonso – Letra y Acordes

Autor
Letra y Música: Padre Ángel Alonso

Intro:
    F#m                            D        A                    
e|---------------------------------------------------------------
B|---------------------------------3---0h2--2-2p0-0------0-0h2-2-
G|--1-1h2-2-1-1-1h2-2-1-1-2-2s4-2----2------2-2-----2-2--------2-
D|---------------------------------0---0------------2-2----------
A|---------------------------------------------------------------
E|--2-------2---------2------------------------------------------

    E                
e|----------------||-------
B|--0-0-0-0h2-0---||-------
G|--1-1-1-------2-||--1----
D|----------------||----4--
A|----------------||-------
E|----------------||-------

F#m
Que gran momento
     D
El silencio es total,
A
Tu sangre y cuerpo
      E
En el vino y el pan
F#m
Es tu encuentro
      D
Con la humanidad
A                   E
Hecho alimento para la eternidad.

D         F#m
No te arrepientes Dios,
D       F#m
No te resistes,
A                    D      E
No miras si yo soy o no pecador.
D         F#m
Sólo te entregas Dios,
D           F#m   
Sólo puedes sernos fiel,
A                    D        E 
Sólo nos brindas tu amor y perdón.
   F#m                        D
Se doblan las rodillas al frente del altar,
A                      E                           F#m
Cual sol que nace te levantas mientras todos te adoramos 
                  D            A                       
y quisiera que mi vida también,  te adore siempre 
      E
y sea yo custodia viva
       F#m                        D           A
Y seas tú la luz eterna que entre mi corazón
                           E                    F#m
Y allí te instales Dios de vida en mi vida para siempre 
                        D             A
y seas fuerza con quien pueda contar 
                  E
Para amar toda la vida sin medida
     F#m      D        LA      E
Como tú, como tú, como tú

Transcrita por: ceferinox
Escucha la canción aqui: 

https://ceferinozambrano.wordpress.com/
Anuncios

Responder

Introduce tus datos o haz clic en un icono para iniciar sesión:

Logo de WordPress.com

Estás comentando usando tu cuenta de WordPress.com. Cerrar sesión / Cambiar )

Imagen de Twitter

Estás comentando usando tu cuenta de Twitter. Cerrar sesión / Cambiar )

Foto de Facebook

Estás comentando usando tu cuenta de Facebook. Cerrar sesión / Cambiar )

Google+ photo

Estás comentando usando tu cuenta de Google+. Cerrar sesión / Cambiar )

Conectando a %s